Encyclopedia‎ > ‎Guitar Tabs‎ > ‎

You Don't Care About Us (bass)


Tabbed By Scott Andrews

****NOTE:THIS SONG IS NOT PLAYED ON BASS, BUT ON A BARITONE GUITAR****

INTRO/VERSE

C  ------------------------------------------------------------------------------------
C  ------------------------------------------------------------------------------------
G# ------------------------------------------------------------------------------------
D# -----------------------0-0-0-0-0-0-0-0-0--0------------------------0-0-0-0-0--0--0--
A# -0-0-0-0-0-0-0-0-0--0--9-9-9-9-9-9-9-9-11-12--0-0-0-0-0-0-0-0-0-0--9-9-9-9-9--9--9--
F# -9-9-9-9-9-9-9-9-10-12------------------------9-9-9-9-9-9-9-9-10-12--------12-12-12-

CHORUS

C  ------------------------------------------------------------
C  ------------------------------------------------------------
G# -10-10-10-10-10-10-10-10-10-11-11-11-11-11-11-11-11-11-11---
D# -11-11-11-11-11-11-11-11-11-12-12-12-12-12-12-12-12-12-12---
A# -11-11-11-11-11-11-11-11-11-12-12-12-12-12-12-12-12-12-12---
F# -9--9--9--9--9--9--9--9--9--10-10-10-10-10-10-10-10-10-10---

"It's Your Age" Bit

C  ---------------------------------------------------------
C  ---------------------------------------------------------
G# -7-7-7-7-7-7-7-7-7--7-7--7-7--7-7-7-7--7-7--7-7--7-7--7--
D# -0-0-0-0-0-0-0-0-0--0-0--0-0--0-0-0-0--0-0--0-0--0-0--0--
A# ---------------------------------------------------------
F# ---------------------------------------------------------

POST-BRiDGE

C  -----------------------------------------------------------------------------
C  -----------------------------------------------------------------------------
G# -----------------------------------------------------------------------------
D# -----------------------------------------------------------------------------
A# -7-7-7-7-7-7-7-7-7-----------------------------------------------------------
F# -5-5-5-5-5-5-5-5-5-4-4-4-4-4-4-4-5-7--5-5-5-5-5-5-5-4-4-4-0-0-0-0-0-4-5-4-5--