Encyclopedia‎ > ‎Guitar Tabs‎ > ‎

Without You I'm Nothing (bass)


TABBED BY SCOTT ANDREWS
with thanx to Johanna

TUNING

Eb A# D# G#

THE STRUMMING IS ABOUT 90% RIGHT


PART 1


G# -----------------------------
D# ------7----------------------
A# -0--0---0-0--0------------0--   
Eb ----------------5--3-3--5-----


PART 2 (TICK TOCK)


G# -----------------------------
D# -----------------------------
A# -0-0---0-0----7-7-7-7-7------REPEAT X 4   
Eb -----------------------------


G# ----------------------------------
D# ----------------------------------
A# -8-10-12-12-8-8--7-8-10-12-12-8-8-   
Eb ---------------------------------- THEN PART 2 AGAIN (2 X)


PART 4 LIBERTINE BIT


G# ----------------------------------------
D# ----------------------------------------
A# -----5---5----5---5--5--3---2---0-------  
Eb -0-0---0--0-0--0---0--0---0---0----2----
                                                (THESE BIT JOIN TOGETHER
                                                (TO FORM 1 PIECE, REPEAT 

G# ----------------------------------------
D# -----7-----7----------------------------
A# -0-0--0-0------0-0----------------------   
Eb -------------------7-7--5-5--3-3--2-2---

PART 5 TAKE THE PLAN 


G# ---------------------------------
D# ---------------------------------
A# -----5--5----5--5----5-5---------   
Eb -0-0--0--0--0-0--0-0--0--0--2-0--


G# -----------------------------------
D# -----7--7--7-------7---7--7--------
A# -0-0--0--0--0--0-0---0--0-0--0-7---   
Eb -----------------------------------


PART 6 WITHOUT YOU ..BIT


G# ----------------------------------------------------------------------
D# -----------------------------------------7--7------7-------7--7--7-7--
A# -----5---5---5-----------------------0-0--0---0--0--0--0-0--0--0--0---   
Eb -0-0---0---0---0--2-3--3--3-0-2--3------------------------------------


END


G# -------------------------------------------
D# -7--7--9--10-------------------------------
A# --0--0--0----0--------------------------0--   
Eb -----------------3---0-2-3-3--3-0-2-3------