Encyclopedia‎ > ‎Guitar Tabs‎ > ‎

Teenage Angst (bass)


From the Brick Shithouse tab archive.
Tabbed by Ian Edwards.

In the normal tuning.

Please don't complain to me about this tune because I know it isn't note perfect.
I played it along with the album track and it sounded good and thats all that matters.

[Verse]

|-------------------------------------------|
|-------------------------------------------|
|-------------------------------------------|
|--6-6-6-6-6-6-6-6--6-6-6-6-6-6-6-6--6-6-6--|

|-----------------------------------------------|
|-----------------------------------------------|
|------------------------------6-6-6-6-6-6-6-5--|
|--6-6-6-6-6--6-6-6-6-6-6-6-6-------------------|

|---------------------------------------------|
|---------------------------------------------|
|--6-6-6--4-4-4-4-----------------------------|
|------------------4--6-6-6-6-6-6-6-6--6-6-6--|

|-------------|
|-------------|
|-------------|
|--6-6-6-6-6--|

Repeat the verse again before going into the chorus.

[Chorus]

|--------------------------------------------------|
|--------------------------------------------8--7--|
|--10-10-10-10-10-10-10-10--8-8-8-8-8-8-8-8--------|
|--------------------------------------------------|

|-------------------------------------|
|-------------------------------------|
|-----------------------5--------5----|
|--6-6-6-6-6-6-6-6--6-6---6--6-6---6--|

Repeat the chorus for a second time, head back into the verse for 2 times before finishing up by doing the chorus twice.