Encyclopedia‎ > ‎Guitar Tabs‎ > ‎

Swallow (bass)


From the Brick shthouse tab archive.
Tabbed by Ian Edwards.

A really weird tune especially the lyrics.  Instead of having chorus, pre-chorus, outro, verse etc... I will list what order the riffs go in after tabbing them all out.

[Riff A]

|-----------------------------------------------------|
|-----------------------------------------------------|
|-----------------------------------------------------|
|--4-4-4-4-4-4--4-4-4-4-4-4-4-4-4-4-4-4-4-4-4--4-4-4--|

[Riff B]

|--13-13-12---13-13-11---13-13-16---13-13-11--|
|---------------------------------------------|
|---------------------------------------------|
|---------------------------------------------|

[Riff C]

|--11-\--------8-----6-----8----------8-----6--|
|----------6-6---6-9---6-6---6-9--6-6---6-9----|
|----------------------------------------------|
|----------------------------------------------|

|------8----------8-----6-----8----------8-----6--|
|--6-6---6-9--6-6---6-9---6-6---6-9--6-6---6-9----|
|-------------------------------------------------|
|-------------------------------------------------|

|-------13-16-15-12--|
|--6-6---------------|
|--------------------|
|--------------------|

[Riff C Type 2]

|--11-\--------8-----6-----8----------8-----6--|
|----------6-6---6-9---6-6---6-9--6-6---6-9----|
|----------------------------------------------|
|----------------------------------------------|

|------8----------8-----6-----8----------8------|
|--6-6---6-9--6-6---6-9---6-6---6-9--6-6---6-9--|
|-----------------------------------------------|
|-----------------------------------------------|

|--6--------8-6-4--|
|----6-6--6--------|
|------------------|
|------------------|

[Riff D]

|--------------------------------------------------------------|
|--6-----4---4-----6---------------6-----4--4-----6------------|
|-----6---------6-----6--2--2-1-------6--------6-----6--7-7-6--|
|--------------------------------------------------------------|

[Riff E]

|------------12--|
|----------------|
|--11--11--------|
|----------------|

Song Order:

Riff A ( x 8 )
Riff B ( x 2 )
Riff C 
Riff B ( x 2 )
Riff C Type 2
Riff D ( x 2 )
Riff B ( x 2 )
Riff C
Riff B ( x 2 )
Riff C Type 2
Riff D
Riff B ( x 2 )
Riff C Type 2
Riff D ( x 4 )
Riff E