Encyclopedia‎ > ‎Guitar Tabs‎ > ‎

Summer's Gone (guitar)


TABBED BY SCOTT ANDREWS

STANDARD PLACEBO TUNING

***Note*** The song is backed with an instrument called a theremin.
           Just thought you'd like to know, that's all.

VERSE/INTRO

C  -0--0-0-0-0-0-0-0-0-0-0-0-0-0-0-0-0-0--0-0-0-0-0-0-0-0-0-0-0-0-0-0-0-0--
C  -0--0-0-0-0-0-0-0-0-0-0-0-0-0-0-0-0-0--0-0-0-0-0-0-0-0-0-0-0-0-0-0-0-0--
G# -0--0-0-0-0-0-0-0-0-0-0-0-0-0-0-0-0-0--0-0-0-0-0-0-0-0-0-0-0-0-0-0-0-0--
D# -4--4-4-4-4-2-0-7*9-9-9-9-9-9-9-9-9-4--4-4-4-4-2-0-5-5-5-5-5-5-5-5-5-5--
A# ------------------------------------------------------------------------
F  ------------------------------------------------------------------------

"YOU TRY TO BREAK THE MOULD...." BIT


C  -0-0-0-0--0-0-0-0--0--0-0--0-0-0-0-0-0--0-0--0---0-0-0--0-0----
C  -0-0-0-0--0-0-0-0--0--0-0--0-0-0-0-0-0--0-0--0---0-0-0--0-0----
G# -0-0-0-0--0-0-0-0--0--0-0--0-0-0-0-0-0--0-0--0---0-0-0--0-0----
D# -5-5-5-5--5-5-5-5--5--5-5--5-5-4-4-4-4--4-4--4---4-4-4--4-4----
A# -3-3-3-3--3-3-3-3--3--3-3--3-3-2-2-2-2--2-2--2---2-2-2--2-2----REPEAT
F  ---------------------------------------------------------------X2

"YOU TRY TO BREAK THE MOULD...." BIT GUITAR #2

C  ---------------------------------------------------------
C  ---------------------------------------------------------
G# ---------------------------------------------------------
D# ---------------------------------------------------------
A# -19---17----15---14-----17-----15----14------------------REPEAT
F  ---------------------------------------------------------X2

"SING FOR YOUR LOVER...." BIT

C  -7-7-7-7--7-7--7-7-7--7-7-7-7--3-3-3-3--3--3-3-3-3--3----
C  -7-7-7-7--7-7--7-7-7--7-7-7-7--3-3-3-3--3--3-3-3-3--3----
G# -0-0-0-0--0-0--0-0-0--0-0-0-0--0-0-0-0--0--0-0-0-0--0----
D# ---------------------------------------------------------
A# ---------------------------------------------------------
F  ---------------------------------------------------------


C  -7-7-7-7-7--7-7-7-7-7--8-8-8-8-8-8-8-8-8-8-8----
C  -7-7-7-7-7--7-7-7-7-7--8-8-8-8-8-8-8-8-8-8-8----
G# -0-0-0-0-0--0-0-0-0-0--0-0-0-0-0-0-0-0-0-0-0----
D# ------------------------------------------------
A# ------------------------------------------------REPEAT BOTH BITS
F  ------------------------------------------------X2