Encyclopedia‎ > ‎Guitar Tabs‎ > ‎

Slackerbitch (guitar)


From the Brick Shithouse tab archive.
Tabbed by Brendan with help from a version by Jon Garrard.

[Intro/Verses]
 
|------------------------------------------------------------------|
|------------------------------------------------------------------|
|----11-----11-----11-----11------11----7-----7-----7-----7-----7--|
|-------9------9------9------9------------5-----5-----5-----5------|
|--7------7------7------7-------7-----3-----3-----3-----3-----3----|
|------------------------------------------------------------------|

[Chorus]

|---------------------------------------------------------------|
|---------------------------------------------------------------|
|--7-7-7-7-7-7-7-----------------------------5-5-5-5-5-5-5-5-5--|
|--7-7-7-7-7-7-7-5-5-5-5-5-5-5-5-5-2-2-2-2-2-5-5-5-5-5-5-5-5-5--|
|--5-5-5-5-5-5-5-5-5-5-5-5-5-5-5-5-2-2-2-2-2-3-3-3-3-3-3-3-3-3--|
|----------------3-3-3-3-3-3-3-3-3-0-0-0-0-0--------------------|

Repeat the last two chords another three times.

[Solo]

|-------------------------------------------------------------------------------------|
|-------------------------------------------------------------------------------------|
|---11-11-11-11-11-11-12-9-9-9-9-9-9-9-9-9-11-11-11-11-11-11-11-12-12-12-12-12-12-12--|
|-------------------------------------------------------------------------------------|
|-------------------------------------------------------------------------------------|
|-------------------------------------------------------------------------------------|