Encyclopedia‎ > ‎Guitar Tabs‎ > ‎

Slackerbitch (bass)


TABBED BY SCOTT ANDREWS

STANDARD PLACEBO BASS TUNING

VERSE

G# ------------------------------------------------
D# ------------------------------------------------
A# -7-7-7-7-7-7-7-7-7-7-7-7-3-3-3-3-3-3-3-3-3-3-3--
F# -0-0-0-0-0-0-0-0-0-0-0-0------------------------

PRE-CHORUS

G# ---------------------------------
D# ---------------------------------
A# -5-5-5-5-5-5-5-------------------
F# ---------------3-3-3-3-3-3-3-3-3-

CHORUS

G# ------------------------------------
D# ------------------------------------
A# ------------------------------------
F# -0-0-0-0-0-0-0-8-8-8-8-8-8-8-8-8-8--


POST-CHORUS/OUTRO

G# ------------------------------------------------
D# ------------------------------------------------
A# -7-7-7-7-7-7-7-7-7-7-7-7-5-5-5-5-5-5-5-5-5-5-5-5
F# -0-0-0-0-0-0-0-0-0-0-0-0------------------------

G# ------------------------------------------------
D# ------------------------------------------------
A# -7-7-7-7-7-7-7-7-7-7-7-7-2-2-2-2-2-2-3-3-3-3-3-3
F# -0-0-0-0-0-0-0-0-0-0-0-0------------------------