Encyclopedia‎ > ‎Guitar Tabs‎ > ‎

Nancy Boy (guitar)


From the Brick Shithouse tab archive.
Tabbed by Brendan.
 
In the standard Placebo tuning (F Bb Eb Ab C C)
 
[Intro]
 
|-------------------------------------------------------------------------|
|-------------------------------------------------------------------------|
|-------------------------------------------------------------------------|
|--6-6-6-6-6-6-6-6-6-6-6-6-6-6-6-6-6-6-6-6-6-6-6-6-6-6-6-6-6-6-6-6-6-6-6--|
|--7-7-7-7-7-7-7-7-7-7-7-7-7-7-7-7-7-7-7-7-7-7-7-7-7-7-7-7-7-7-7-7-7-7-7--|
|--0-0-0-0-0-0-0-0-0-0-0-0-0-0-0-0-0-0-0-0-0-0-0-0-0-0-0-0-0-0-0-0-0-0-0--| etc
 
[Verses]
 
|-------------------------------------|---------------------------------------|
|-------------------------------------|---------------------------------------|
|-------------------------------------|--6-6-6-6-6-6-6-6-6-6-6-6-6-6-6-6-6----|
|--6-6-6-6-6-6-6-6-6-6-6-6-6-6-6-6-6--|--7-7-7-7-7-7-7-7-7-7-7-7-7-7-7-7-7-0--|
|--7-7-7-7-7-7-7-7-7-7-7-7-7-7-7-7-7--|--0-0-0-0-0-0-0-0-0-0-0-0-0-0-0-0-0-0--|
|--0-0-0-0-0-0-0-0-0-0-0-0-0-0-0-0-0--|------------------------------------0--| repeat
 
[Chorus]
 
|--------------------------------------------------------------------------------------------------|
|--------------------------------------------------------------------------------------------------|
|--9-9-9-9-9-9-9-12-12-12--------------------------------------------------------------------------|
|--9-9-9-9-9-9-9-12-12-12-9-9-9-9-9-9-9-9-9-9-9-9-9-8-8-8-8-8-8-8-8-8-8-7-7-7-7-7-7-7-7-7-7-7-7-7--|
|--7-7-7-7-7-7-7-10-10-10-9-9-9-9-9-9-9-9-9-9-9-9-9-8-8-8-8-8-8-8-8-8-8-7-7-7-7-7-7-7-7-7-7-7-7-7--|
|-------------------------7-7-7-7-7-7-7-7-7-7-7-7-7-6-6-6-6-6-6-6-6-6-6-5-5-5-5-5-5-5-5-5-5-5-5-5--|

The clangy in between bits are just where you have a guitar with a floating bridge and you hit the wrong side of it.  If you get what I mean.
 
The strumming for the chorus is:
F5  - up and down
G#5 - fast down only
C5  - as above
B5  - up and down
Bb5 - fast down only