Encyclopedia‎ > ‎Guitar Tabs‎ > ‎

Nancy Boy (bass)


From the Brick Shithouse tab archive.
Tabbed by Brendan.
 
In the standard Placebo bass tuning (F Bb Eb Ab)
 
[Verses]
 
I won't write all the notes, suffice to say you can easily tell when it changes.
 
|-----------------|-----------------------|
|-----------------|-----------------------|
|--7-7-7-7-7-etc--|--0-0-0-0-etc-3-3-5-5--| repeat.
|-----------------|-----------------------|
 
[Chorus]
 
|-----------------------------------------------------------------------------------------|
|------------------5-5-5------------------------------------------------------------------|
|--7-7-7-7-7-7-7-7---------------7---------------7---------------7---------------7--------|
|------------------------7-7-7-7---7-7-7-7-7-7-7---7-7-7-6-6-6-6---6-6-6-6-6-6-6---6-6-6--|
 
|-----------------------------------|
|-----------------------------------|
|----------7------------------------| repeat.
|--5-5-5-5---5-5-5-5-5-5-5-8-8-5-5--|
 
[Bridge]
 
|-------------------------------------------------|
|-------------------------------------------------|
|--4-4-4-4-4-4-4-4-4-5-5-5-5-5-5-5-5-6-6-etc-etc--|
|-------------------------------------------------|