Encyclopedia‎ > ‎Guitar Tabs‎ > ‎

My Sweet Prince (guitar)


TRANSCRIBED BY SCOTT ANDREWS

THIS IS THE MAIN GUITAR PART USED IN ALL OF THE VERSES IN THE SONG, ETC
NOTE: STEFAN PLAYS GUITAR ON THIS SONG.

C  --------------4-------------4-------------4--------------4--
C  -----------5-------------5-------------5--------------5-----
G# --------6-------------5-------------6--------------6--------
D# -----6-------------6-------------6--------------6-----------
A# --4-------------3-------------4--------------0--------------
F  ------------------------------------------------------------

"ME AND THE DRAGON".... BIT (LET NOTES RING)

C  -----------------------4-------------------------4---------
C  --------------------5-------------------------5------------
G# --------6--------6---------------6--------6----------------
D# -----6-----------------------6-----------------------------
A# -------------------------0------------0--------------------
F  -0----------0----------------------------------------------


"YOU ARE THE ONE"....BIT

C  ----------------------------------4----------
C  -------------------------------5-------------
G# --------6--------6-------6-------------------
D# ----6---------6-------6----------------------
A# ---------------------------------------------
F  -O---------0-------0-------0-----------------

C  ---------------------------------4-----------
C  ------------------------------5--------------
G# --------6--------6------6--------------------
D# ----6--------6-------6-----------------------
A# -0--------0-------0-------0------------------
F  ---------------------------------------------

THESE ARE ALL THE PARTS YOU NEED FOR THE SONG, AS PIANO IS USED TO FILL THE SONG OUT