Encyclopedia‎ > ‎Guitar Tabs‎ > ‎

Miss Moneypenny (guitar)


TRANSCRIBED BY SCOTT ANDREWS 

INTRO/CHORUS:

C  -------------------------------------------------------
C  -------------------------------------------------------
G# --9--9--9--9---10-10-10-10--11-11-11-11--10-10-10-10---
D# --10-10-10-10--10-10-10-10--10-10-10-10--10-10-10-10---
A# --0--0--0--0---0--0--0--0---0--0--0--0---0--0--0--0----REPEAT
F  -------------------------------------------------------
            **           **           **            **

* MEANS HARMONIC


VERSE:

C  --7------------------------
C  --8------------------------
G# --9------------------------
D# --9------------------------
A# --7------------------------REPEAT    
F  ---------------------------

THIS IS THE CHORD USED IN THE VERSE. STRIKE IT THEN ADD WHAMMY BAR EFFECT.


MIDDLE-8 PART: ("EVERY JOB HE SAVES THE GIRL")

C  ---------------------------------------------------------------------------
C  ---------------------------------------------------------------------------
G# -------------------------7-7-7-7-9-----------5-5-5-5-----------7-7-7-7-9---
D# -3-3-3-3-3-3-3-3--7-7-7--7-7-7-7-9--3-3-3-3--5-5-5-5--7-7-7-7--7-7-7-7-9---
A# -3-3-3-3-3-3-3-3--7-7-7--5-5-5-5-7--3-3-3-3--3-3-3-3--7-7-7-7--5-5-5-5-7---REPEAT(X2)    
F  -1-1-1-1-1-1-1-1--5-5-5-------------1-1-1-1-----------5-5-5-5--------------