Encyclopedia‎ > ‎Guitar Tabs‎ > ‎

Miss Moneypenny (bass)


From the Brick Shithouse tab archive.
Tabbed by Brendan.
 
In normal tuning.
 
[Intro/similar]
 
|-----------------------------------|
|-----------------------------------|
|--1-3-3-3-1-1-1-1-h-3-s-4-4-4-3-3--|
|-----------------------------------|
 
[Verses]
 
|-----------------------|
|-----------------------|
|--1-1------------------|
|------2-2-2-3-3-2-2-2--|
 
|-----------------------------------|
|--4-4-4-4-4-4----------------------|
|------------------4-h-6-6-6-6-6-6--|
|--------------6-6------------------|
   Every job.......
 
|----3---5---6-----5--|
|---------------------|
|--1---3---4---3-3----|
|---------------------|
   0898.........