Encyclopedia‎ > ‎Guitar Tabs‎ > ‎

Mars Landing Party (guitar)


TABBED BY SCOTT ANDREWS

STANDARD PLACEBO TUNING

THIS SONG IS VERY WEIRD, AND WEIRDLY STRUCTURED AS WELL.
THIS IS THE GUITAR PART, AND ALTHOUGH THIS MAY SOUND WRONG TO THE UNEXPERIENCED, THIS IS WHAT I BELIEVE IS NEAR ENOUGH CORRECT THIS ONLY SOUNDS RIGHT WHEN YOU PLAY ALONG WITH THE TRACK, OR YOU HAVE A BASSIST PLAYING THE BASS PART.
ILL GIVE EACH PART A NUMBER, AND AT THE END OF THE TAB, ILL PUT A STRUCTURE LIST.

PART A# (THIS IS NOT THE EXACT STRUMMING,USE THIS AS A GUIDE AND KEEP IT FUNKY )

C  ---------------------------------------------------------
C  ---------------------------------------------------------
G# --6-6-6--6-6-6-6---6-6--6-6-6-6---6-6--6-6-6-6--6-6--6---
D# --7-7-7--7-7-7-7---7-7--7-7-7-7---7-7--7-7-7-7--7-7--7---
A# ---------------------------------------------------------
F# ---------------------------------------------------------


PART B# (THIS VARIES EACH TIME PICKED/STRUMMED, SO USE AS A GUIDE)
ADD WHAMMY WHERE NESSACERY

C  ----------------------------------------
C  ---5---5---5--5---5----7---------7------
G# -4-4--4-4-4-4-4-4-4----6-------6--------
D# -5-5--5-5-5-5-5-5-5----7-----7----------
A# ----------------------------------------
F# ----------------------------------------


PART C#

C  ------------------------------------------------------------
C  ------------------------------------------------------------
G# -6-6--6-6--6-6-6-6-6-11-11--11-11--11--11--11--11-11-11-11--
D# -7-7--7-7--7-7-7-7-7-11-11--11-11--11--11--11--11-11-11-11--
A# ------------------------------------------------------------
F# ------------------------------------------------------------

PART D#

C  -0----0----0----------0----0-----0--------
C  -7-7--7-7--7-7-7-7-7--7--7-7-7-7-7-7-7--7-
G# -7-7--7-7--7-7-7-7-7--6--6-6-6-6-6-6-6--6-
D# -7-7--7-7--7-7-7-7-7--7--7-7-7-7-7-7-7--7-
A# ------------------------------------------
F# ------------------------------------------

PART E#

C  -----------------------------------------
C  -------------------------------------5---
G# --6-6-6--6-6-6-6---6-6--6-6-6-6----6-----
D# --7-7-7--7-7-7-7---7-7--7-7-7-7--7-------
A# -----------------------------------------
F# -----------------------------------------

~: ADD WHAMMY HERE

STRUCTURE:
A#
B#
-
C#
D#
E#
B#
-
C#
D#~
E#~
B#~
-
C#
D#
E#
B#

END