Encyclopedia‎ > ‎Guitar Tabs‎ > ‎

Lady of the Flowers (guitar)


TRANSCRIBED BY SCOTT ANDREWS

NOTE:THIS SONG STARTS WITH THE BASS PLAYED BY STEF, AND BRIAN PLAYING BEHIND THE BRIDGE.

"EXCUSE ME.." BIT
C  ---------------------------------------------------
C  -----8---0---0---8--------0------0---8-------------
G# --9------------------9---------9-------------------
Eb ----------------------------------------10---------
Bb -----------------------0---------------------------
F  ---------------------------------------------------

"IT SEEMED TO LAST FOR HOURS" BIT

C  ---------------------------------------------------------
C  --0-----------0-----------0---------0--------------------
G# --10-10-9--9--10-10-9--9--9--10-9---9--------------------
Eb --9--9--9--9--9--9--9--9--9--9--9---9--------------------
Bb ------------------------------------0--------------------
F  ---------------------------------------------------------

CHORUS

C  ----------------------------------------------------------
C  --1-1-1-1-1-1-1-1-1-1-1-----------------------------------
G# --2-0-0-0-2-0-0-0-0-2-0--5-5-5-5-5-5-5-5-5-5--------------
Eb --3-3-3-3-3-3-3-3-3-3-3--5-5-5-5-5-5-5-5-5-5--------------
Bb --3-3-3-3-3-3-3-3-3-3-3--3-3-3-3-3-3-3-3-3-3--------------
F  ----------------------------------------------------------

BEHIND THE BRIDGE AT END