Encyclopedia‎ > ‎Guitar Tabs‎ > ‎

Lady of the Flowers (bass)


From the Brick Shithouse tab archive.
Tabbed by Ian Edwards.

[Beginning]

|--------17-18-17--------17-18-17------|
|-----15--------------15----------8----|
|--16--------------16------------------|
|-----------------------------------6--|

|--18-let-ring......--17--------17-18-17------|
|--15-let-ring......---------15----------8----|
|--13-let-ring......------16------------------|
|------------------------------------------6--|

[Verse]

|--18-17--------17-18-17-------|
|------------15-----------8----|
|---------16-------------------|
|---------------------------6--|

Keep repeating the verse until the guy stops speaking and start the part below just before Brian starts singing and also when he is singing.

[Pre-Chorus]

|------------------------------------------------|
|------------------------------------------------|
|------------------------------------------------|
|--2-2-2-2-2-2-2-/-6-let-ring......-6-6-6-6-6-6--|

On the last time round before the guy starts speaking again and when Brian sings "Into her hypnotic gaze", play:

|-------------------------------------|
|-------------------------------------|
|-------------------------------------|
|--2-2-2-2-2-2-/-12-6-let-ring......--|

Next play the beginning bit until the guy stops speaking and then play the pre-chorus and the bit above when the pre chorus ends. After this it gets heavier/rockier (whatever)

[Chorus 1]

|-----------------------------------------------|
|-----------------------------------------------|
|--9-9-9-9-9-9-9--8-8-8-8-8-8-8--9-9-9-9-9-9-9--|
|-----------------------------------------------|

|-----------------------------------------------|
|-----------------------------------------------|
|-----------------9-9-9-9-9-9-9--8-8-8-8-8-8-8--|
|--9-9-9-9-9-9-9--------------------------------|

|-----------------------------------|
|-----------------------------------|
|--9-9-9-9-9-9-9--------------------|
|-----------------6-let-ring......--|

Next part is where the guy speaks again so just simply play the beginning part again. After this play the pre-chorus until Brian finishes singing "In her electronic haze". Go into chorus type 2 after that.

[Chorus 2]

|-----------------------------------------------|
|-----------------------------------------------|
|--9-9-9-9-9-9-9--8-8-8-8-8-8-8--9-9-9-9-9-9-9--|
|-----------------------------------------------|

|------------------------------------------------|
|------------------------------------------------|
|-----------------9-9-9-9-9-9-9---8-8-8-8-8-8-8--|
|--9-9-9---9-9-9---------------------------------|

|-------------------------------------------------|
|-------------------------------------------------|
|--9-9-9-9-9-9-9-------------------------9-9-9-9--|
|-----------------9-9-9-9-9-9-9-/-16-16-----------|

|-------------------------------------------------|
|-------------------------------------------------|
|--9-9-9---8-8-8-8-8-8-8--9-9-9-9-9-9-9-----------|
|----------------------------------------9-9-9-9--|

|-----------------------------------------------|
|-----------------------------------------------|
|-----------------9-9-9-9-9-9-9--8-8-8-8-8-8-8--|
|--9-9-9-/-16-16--------------------------------|

|--------------------------------------|
|-----------------8-8--15--15--11--11--|
|--9-9-9-9-9-9-9-----------------------|
|--------------------------------------|

After that rather short chorus type 2, repeat the beginning until the song stops (listen to how many times Stef plays it to get it right). During the parts where the guy speaks I said use the beginning, using the verse which I wrote works just as well so don't get muddled on that part.