Encyclopedia‎ > ‎Guitar Tabs‎ > ‎

Kitsch Object (bass)


TABBED BY SCOTT ANDREWS

TUNING (F# A# D# G# C C)

VERSE(PART 1)/INTRO

C  -----------------------------------------------
C  -----------------------------------------------
G# -7--7-7--7-7--10-10-10-10-10-9--9-9--4-4--5-5--
D# -7--7-7--7-7--10-10-10-10-10-9--9-9--4-4--5-5--
A# -5--5-5--5-5--8--8--8--8--8--7--7-7--2-2- 3-3--REPEAT  
F# -----------------------------------------------

CHORUS("WITH POETIC LISENCE....ETC")

C  -----------------------
C  -1-1-1-1-1-1-1-1-1-1-1-
G# -2-2-2-2-2-2-2-0-0-0-2-EMPHASISE THE NOTES ON THIS STRING
D# -3-3-3-3-3-3-3-3-3-3-3-
A# -3-3-3-3-3-3-3-3-3-3-3-  
F# -0-0-0-0-0-0-0-0-0-0-0-

"WEIGHTLESS BARE FAITHLESS SCARED...." BIT

C  -------------------
C  -------------------
G# -2-2-2-2--0-2--0-2-
D# -3-3-3-3--3-3--3-3-
A# -3-3-3-3--3-3--3-3-REPEAT   
F# -0-0-0-0--0-0--0-0-X4

VERSE (PART 2)

C  -----------------------------------------------
C  -----------------------------------------------
G# -7--7-7--7-7--12-12-12-12-12-9--9-9--4-4--5-5--
D# -7--7-7--7-7--12-12-12-12-12-9--9-9--4-4--5-5--
A# -5--5-5--5-5--10-10-10-10-10-7--7-7--2-2- 3-3--REPEAT  
F# ----------------------------------------------