Encyclopedia‎ > ‎Guitar Tabs‎ > ‎

Hug Bubble (bass)


From the Brick Shithouse tab archive.
Tabbed by Brendan.
 
In the standard placebo bass tuning (F Bb Eb Ab)
 
There is an intro but it's very short so you'd be forgiven for missing
it.  It's this:
 
|------------------------|
|--10-p-9---8-p-7--------|
|------------------------|
|-----------------7-p-5--|
 
Play that twice.
 
The rest is:
 
|------5------------------|
|--------------9-----7----|
|----7-----7-8-----7------|
|--5-------------------5--|