Encyclopedia‎ > ‎Guitar Tabs‎ > ‎

HK Farewell (guitar)


TABBED BY SCOTT ANDREWS

USE NORMAL PLACEBO TUNING..... ALTHOUGH IT MIGHT BE THE SWALLOW/EVIL DILDO TUNING

EVEN BETTER...TRY (F A# D# G# C F)

THESE PARTS ARE IN THE ORDER THEY  APPEAR IN THE SONG

PART 1  (PLAY CHORDS OF F AND A# ALTERNATIVLEY UNDERNEATH)

F  -7-7-7-7-7-7-7-7-7-7-7-7-7-7-7-7----------
C  -0-0-0-0-0-0-0-0-0-0-0-0-0-0-0-0----------
G# ------------------------------------------
D# ------------------------------------------
A# ------------------------------------------
F  ------------------------------------------


PART 2

C  ------11--------------9-----------------
C  ----------12---------------7--9---------
G# ----9-----------9-----------------------
D# ----------------------------------------
A# -7-----------------7--------------------
F  ----------------------------------------

PART 3 (F AND A# UNDERNEATH AS WELL)

C  ------------------------------------------
C  ------------------------------------------
G# ------------------------------------------
D# ------------------------------------------
A# --7---7-6-----11-14-----9--11-------------
F  ------------------------------------------

NEXT BIT

C  -------------------------------------------------------------------
C  -------------------------------------------------------------------
G# -------------------------------------------------------------------
D# -6-6-6-6-6-6-6-6-6-6-6-6-6-6-6-6-7-7-7-7-7-7-7-7-7-7-7-7-7-6-6-6---
A# -7-7-7-7-7-7-7-7-7-7-7-7-7-7-7-7-0-0-0-0-0-0-0-0-0-0-0-0-0-0-0-0---
F  -0-0-0-0-0-0-0-0-0-0-0-0-0-0-0-0-----------------------------------
FOLLOWED BY THE UNDERPINNING OF CHORDS C/F AND A#