Encyclopedia‎ > ‎Guitar Tabs‎ > ‎

Hare Krishna (guitar)


TABBED BY SCOTT ANDREWS

TUNING  (E A D G B B)

ALTHOUGH THIS SONG WAS ALMOST DEFINATLY PLAYED USING SITARS, THEREMINS AND OTHER
"EXOTIC" INTRUMENTS, I'VE MANAGED TO TAB IT FOR STANDARD GUITAR. ENJOY!!!!

INTRO:BACKWARDS MASKING, DELAYED VOCALS

USE BENDS GALORE WHEN PLAYING THIS PART!!!!
EVERY NOTE (4th FRET ON G STRING) MUST BE BENT TO ACHIEVE THE EFFECT HEARD ON THE TRACK.


B  -0-0-0--0-0-0-0-0-0-0--0-0-0-0-0-0-0-0-0--
B  -0-0-0--0-0-0-0-0-0-0--0-0-0-0-0-0-0-0-0--
G  -4-4-4--4-4-4-4-4-4-4--4-4-4-4-4-4-4-4-4--
D  ------------------------------------------
A  ------------------------------------------
E  ------------------------------------------


"THE RIFF" (ALSO PLAYED USING JUST SINGLE NOTES/ALL
ON G STRING (O-ER!)

B ----------------------------------------------
B 0--0--0--0--0--0--0--0--0--0--0--0--0--0--0---
G 11-11-11-11-11-11-11-12-12-13-14-14-14-14-14--
D ----------------------------------------------
A ----------------------------------------------
E ----------------------------------------------

B --------------------------------------
B -0-0-0-0-0-0-0-0-0-0-0-0-0-0-0--------
G -4-4-4-2-6-6-6-6-4-2-0-0-0-0-8--------
D --------------------------------------
A --------------------------------------
E --------------------------------------

"CHORUS BIT" (ONLY NOTICEBLE CHANGE IN SONG)
WHEN BRIAN SINGS "RAA-MAAR"

B ----------------------------
B -0-0-0-0-0-0-0-0-0-0-0-0----
G -2-2-2-2-2-2-2-2-2-2-2-2----
D ----------------------------
A ----------------------------
E ----------------------------