Encyclopedia‎ > ‎Guitar Tabs‎ > ‎

Hang On To Your IQ (bass)


tab by Basim

this is fairly tricky, but if you want you can leave out the little extra
bits to make it easier.

(standard placebo tuning- F Bb Eb Ab)

INTRO

Guitar only first 2 & a bit bars
|------------------|------------------|------------------|9h11h9-6h9h6--4---
|
|------------------|------------------|------------------|------------------
|
|------------------|------------------|--let-ring--------|------------------
|
|------------------|------------------|0-----------------|------------------
|


|--------------|-------------2--|--------------|9h11h9-6/9h11-13h14h13--11--
|
|--------------|----------------|--------------|----------------------------
|
|0-0-0--0-0-0--|0-0-0--0-0-0----|--------------|----------------------------
|
|--------------|----------------|0-0-0--0-0-0--|----------------------------
|


VERSE & CHORUS (both follow same pattern)

|------------------|------------------|------------------|------------------
|
|------------------|------------------|------------------|------------------
|
|0-0-0----0-0-0----|0-0-0----0-0-0----|------------------|------------------
|
|------------------|------------------|0-0-0----0-0-0----|0-0-0----0-0-0----
|

Play X2 for verse, and X2 for chorus


"I'M LONELY" part
        I'm Lonle-he....
|------------------|------------------|------------------|------------------
|
|------------------|------------------|------------------|------------------
|
|------------------|------------------|-0-2-3-0---0-2-3--|-0-2-3-0----------
|
|-2-2-2--0-2-2-2--0|-2-2-2--0-2-2-2---|------------------|------------------
|

        X2

VERSE & CHORUS & I'M LONLEY part as before

SOLO

|------------------|------------------|------------------|------------------
|
|------------------|------------------|------------------|------------------
|
|4-4-4-0--4-4-4-0--|0-0-0----0-0-0----|4-4-4-0-4-4-0-4h5-|0-0-0----0-0-0----
|
|------------------|------------------|------------------|------------------
|


|----------1-1-1-1-1-1-----2-2---|------------------|------------------|
|0-0-0-0-0-------------4-4-----0-|------------------|0-0-0----0-0-0----|
|--------------------------------|0-0-0----0-0-0----|------------------|
|--------------------------------|------------------|----------------4h|


|------------------|------------------|------------------|------------------
|
|------------------|--let-ring--------|------------------|------------------
|
|------------------|-4----------------|------------------|-0----------------
|
|-5-5-5-5-5-5-5-5-4|----------------4h|-5-5-5-5-5-5-5-5-4|------------------
|


VERSE & CHORUS & I'M LONLEY part as before, + the solo again (during the
third verse stefan plays the second of the intro twiddly bits). End on a Bb.