Encyclopedia‎ > ‎Guitar Tabs‎ > ‎

Flesh Mechanic (guitar)


TABBED BY SCOTT ANDREWS

STANDARD PLACEBO TUNING

INTRO/VERSE (AFTER BASS INTRO)

C  -0-0--0--0-0-0-0-0-0-0-0-0-0--0--0--0--0--0--0---
C  -0-0--0--0-0-0-0-0-0-0-0-0-0--0--0--0--0--0--0---
G# -0-0--0--7-7-7-7-7-7-7-7-7-0--0--0--0--0--0--0---
D# -9-10-9--5-5-5-5-5-5-5-5-5-12-14-14-12-12-12-12--
A# -------------------------------------------------
F  -------------------------------------------------

"SAID HE'S A POET...." BIT

C  -5-5-5-5-5-5-7-3-3-3-3-3-0-0-0-0-0-0-0--
C  -5-5-5-5-5-5-7-3-3-3-3-3-0-0-0-0-0-0-0--
G# ----------------------------------------
D# ----------------------------------------
A# ----------------------------------------
F  ----------------------------------------

CHORUS

C  ------------------------------------------------------------
C  ------------------------------------------------------------
G# -5-5-5-5-5-4-4-4-4-7-7-7-7-5-4-2---------------------X-2-X--
D# -5-5-5-5-5-5-5-5-5-5-5-5-5-5-5-5--0-0-0-0-0-0-2-2-2--X-4-X--
A# -3-3-3-3-3-3-3-3-3-3-3-3-3-3-3-3--2-2-2-2-2-4-2-2-2--X-2-X--
F  ----------------------------------3-3-3-3-3-2-0-0-0---------

SOLO TYPE THING

C  -8-8-8-8--8-7-7-7-7-3-3-3-3-10-10-10-10-10-
C  -8-8-8-8--8-7-7-7-7-3-3-3-3-10-10-10-10-10-
G# -------------------------------------------
D# -------------------------------------------
A# -------------------------------------------
F  -------------------------------------------


C  7-8-8-8-8-8-8-8-10-10-8-7-7-7-7-3-3-3-3-3-3-3--
C  7-8-8-8-8-8-8-8-10-10-8-7-7-7-7-3-3-3-3-3-3-3--
G# -----------------------------------------------
D# -----------------------------------------------
A# -----------------------------------------------
F  -----------------------------------------------


C  -0-0-0-0-0-0-3-3-3-0-0-0-----------------------
C  -0-0-0-0-0-0-3-3-3-0-0-0-----------------------
G# -------------------------0-0-0-0-0-2-2-2-0-0-0-
D# -----------------------------------------------
A# -----------------------------------------------
F  -----------------------------------------------


C  -0-0-0-0-0-0-3-3-3-0-0-0-----------------------
C  -0-0-0-0-0-0-3-3-3-0-0-0-----------------------
G# -------------------------0---------------------
D# -----------------------------------------------
A# -----------------------------------------------
F  -----------------------------------------------

POST SOLO PART


C  --------------------------------------------
C  --------------------------------------------
G# -0-0-0-0-0-0-0-0-0-0-0-0-0-0-0-0-0-0-0-0----
D# -5-5-5-5-5-5-5-5-5-5-5-5-5-5-5-5-5-5-5-5----
A# --------------------------------------------
F  --------------------------------------------