Encyclopedia‎ > ‎Guitar Tabs‎ > ‎

Every You Every Me (bass)


TABBED BY SCOTT ANDREWS

STANDARD PLACEBO TUNING

VERSE/INTRO


G# --------------------------------------------------------------------------
D# --------------------------------------------------------------------------
A# -4-4-4-4-4-4-4-4--------------------4-4-4-4-4-4-4-4-----------------------
F# ------------------5-5-5-5--7-7-7-7------------------4-4-4-5-5-5-5-7-7-7-7-

PRE-CHORUS/CHORUS 



G# -----------------------------------------------------------------
D# -----------------------------------------------------------------
A# -0-0-0-0-0-0-0-0-0-0-0-0-0-0-0-0-4-4-4-4-4-4-4-4-4-4-4-4-4-4-4-4-
F# -----------------------------------------------------------------


G# ---------------------------------------------------------------
D# ---------------------------------------------------------------
A# ---------------------------------------------------------------
F# -5-5-5-5-5-5-5-5-5-5-5-5-5-5-0-0-0-0-0-0-0-0-4-4-4-4-4-4-4-4-4-