Encyclopedia‎ > ‎Guitar Tabs‎ > ‎

Drowning by Numbers (guitar)


From the Brick Shithouse tab archive.
Tabbed by Nick Maxwell.

Usual Placebo tuning (F Bb Eb Ab C C)

|---------------------|
|------------2-2-5-3--|
|---------------------|
|--4-bend-------------|
|---------------------|
|---------------------|
Rhy fig.1 intro bend and riff through later verses.

|-----------------------------------------------|
|-----------------------------------------------|
|--6-6-6-6-6-6-6-6-6-6-6-6-6-6-6-6-6-6-6-6-6-6--|
|--6-6-6-6-6-6-6-6-6-6-6-6-6-6-6-6-6-6-6-6-6-6--|
|--4-4-4-4-4-4-4-4-4-4-4-0-0-0-0-0-0-0-0-0-0-0--|
|-----------------------------------------------|
Rhy fig.2 pre-chorus "It's my choosing, down to the bone" bit.

|---------------------------------------------|
|----------------------3-3-3-3-3-2-2-2-2-2-2--|
|----------------------2-2-2-2-2-2-2-2-2-2-2--|
|--4-4-4-4-4-7-7-7-7-7-0-0-0-0-0-2-2-2-2-2-2--|
|--4-4-4-4-4-7-7-7-7-7-----------0-0-0-0-0-0--|
|--2-2-2-2-2-5-5-5-5-5------------------------|
Rhy fig.3 chorus "Drowning, dive in" bit.