Encyclopedia‎ > ‎Guitar Tabs‎ > ‎

Drowning by Numbers (bass)


From the Brick Shithouse tab archive.
Tabbed by Brendan.
 
In the standard placebo bass tuning (F Bb Eb Ab)
 
[Verses]
 
|------6-----6--|------6-----           -6-    -6-b-7-b-6-    -----6---7---9--|
|--4-4---4-4----|------------ followed  ---    -----------    ----------------|
|---------------|--5-5---5-5- by either --- or ----------- or -5-5---5---5----|
|---------------|------------           ---    -----------    ----------------|
 
[Pre-chorus]
 
Play these two notes rapidly for each of the chords.  I can't see the point in
writing all the notes.
 
|-----|-----|
|-----|-----|
|--4--|-----|
|-----|--5--|
 
[Chorus]
 
|------------------2-2------------|
|--4-4-4--------------------------|
|--------3-4-4-4-4-----3-4-4-4-4--|
|---------------------------------|