Encyclopedia‎ > ‎Guitar Tabs‎ > ‎

Come Home (guitar)


TABBED BY SCOTT ANDREWS

STANDARD PLACEBO TUNING

VERSE/INTRO

C  --------------------------------------------------------------------------
C  --------------------------------------------------------------------------
G# --------------------------------------------------------------------------
D# -9-9--9-9-9-9--9-9-9-9-9--9-9--9-9-9-9------------------------------------
A# -8-8--8-8-8-8--8-8-8-8-8--8-8--8-8-8-8-7-7--7-7-7-7--7-7--7-7-7-7-7-7-7-7-REPEAT
F  ---------------------------------------8-8--8-8-8-8--8-8--8-8-8-8-8-8-8-8-

CHORUS (THIS IS ALSO PLAYED AT THE VERY END)

C  ----------------------------------------------------------------
C  ----------------------------------------------------------------
G# ----------------------------------------------------------------
D# -17-17-17-17-17-17-17-17-17-17--9-9-9-9-9-10-10-10-10-10-10-10--
A# ----------------------------------------------------------------REPEAT
F  ----------------------------------------------------------------

WIERD BIT

C  -0-------0---------------------
C  -0-------0-------<0>-----------
G# -4-------4-----------<0>-------
D# -5-------5--<0>----------------REPEAT
A# ---------0---------------------
F  -------------------------------

WHEN THE WIERD BIT PICKS UP....

C  -0-0-0-0--0-0-0-0-0-0-0-0-0-0-0--0--0--0---0-------<0>-----------
C  -0-0-0-0--0-0-0-0-0-0-0-0-0-0-0--0--0--0---0------<0>-----<0>----
G# -4-4-4-4--4-4-4-4-4-4-4-4-4-4-12-12-12-9---9-----<0>---------<0>-
D# -5-5-5-5--5-5-5-5-5-5-5-5-5-5-12-12-12-9---9----<0>---<0>--------REPEAT
A# -----------------------------------------------<0>---------------
F  ----------------------------------------------<0>----------------

<0> ARE THE STRING YOU NEED TO PLUCK/STRUM BEHIND THE BRIDGE