Encyclopedia‎ > ‎Guitar Tabs‎ > ‎

Come Home (bass)


From the Brick Shithouse tab archive.
Tabbed by Brendan.
 
In the standard Placebo tuning (F Bb Eb Ab)
 
[Intro and verse]
 
|-----------------------|-----------------------|
|--4-4-3-4-4-4-4-3-4-3--|--4-4-3-4-4-4-4-3-4-3--|
|-----------------------|-----------------------|
|-----------------------|-----------------------|
 
|---------------------------------------------------------------------|
|---------------------------------------------------------------------|
|--3-3-3-3-3-3-0-h-2-h-3-3-3-3-3-0-h-2-h-3-3-3-3-3-0-h-2-3-3-3-3-3-3--|
|---------------------------------------------------------------------|
 
[Chorus]
 
|-----------------------------|---------------------------|
|--3-3-3-3-3-3-3-3-3-3-3-3-3--|--0-0-0-0-0-0-0-0-0-0-0-0--|
|-----------------------------|---------------------------|
|-----------------------------|---------------------------|
 
|-----------------------------|---------------------------|
|-----------------------------|---------------------------|
|--3-3-3-3-3-3-3-3-3-3-3-3-3--|--0-0-0-0-0-0-0-0-0-0-0-0--|
|-----------------------------|---------------------------|