Encyclopedia‎ > ‎Guitar Tabs‎ > ‎

Bruise Pristine (guitar)


Tabbed by Brendan.
 
In the standard Placebo tuning (F Bb Eb Ab C C)
 
[Intro]
Pitch harmonics.  I forget where.  Think at the 12th fret and 10th together.

[Verse]
                    [bend]
|---------------------------|
|---------------------------|
|------------------9-9-9-9--|
|--6-6-6-9-9-8-8-8-8-8-8-8--|
|--7-7-7-7-7-7-7-7-7-7-7-7--|
|--0-0-0--------------------|
 
|----------------------------------------|
|----------------------------------------|
|----------------------------------------|
|----------------------------------------|
|--10-10-10-10-10-10-10-9-9-9-9-9-9-9-9--|
|---8--8--8--8--8--8--8-8-8-8-8-8-8-8-8--|
 
[Chorus]
 
|---------------------|---------------------|---------------------|
|---------------------|---------------------|---------------------|
|---------------------|---------------------|--1-2-2-2-3-3-3-4-4--|
|---------------------|--2-3-3-3-4-4-4-5-5--|--2-3-3-3-4-4-4-5-5--|
|--2-3-3-3-4-4-4-5-5--|--2-3-3-3-4-4-4-5-5--|--2-3-3-3-4-4-4-5-5--|
|--0-1-1-1-2-2-2-3-3--|--0-1-1-1-2-2-2-3-3--|--0-1-1-1-2-2-2-3-3--|

|----------------------------|
|----------------------------|
|----------------------------|
|--10-10-10-10-10-10-10------|
|--10-10-10-10-10-10-10------|
|---8--8--8--8--8--8--8-etc--|

[Middle 8]
Just Em and jangly behind bridge stuff.