Encyclopedia‎ > ‎Guitar Tabs‎ > ‎

Brick Shithouse (bass)


TABBED BY SCOTT ANDREWS

DROPPED "F" TUNING (TUNE E A# D# G#)

"LAY HIM DOWN, LIE ON"....BIT

G# ------------------------------------------------------------------
D# ------------------------------------------------------------------
A# ------------------------------------------------------------------ REPEAT  
E  -0-0-0-0-0-0-0-0-0-0-\-7-7-7-7-7-0-0-0-0-0-0-0-0-0-\12-12-12-12-12

"MEET THE BRICK SHITHOUSE...." BIT

G# -------------------------------
D# -13--12-12-12-12-----12-12-----
A# ------------------13-------13--REPEAT  
E  -0-----------------------------

"WHEN YOUR LOVER...."  BIT

G# -----------------------------------------------------------------------------------
D# -----------------------------------------------------------------------------------
A# -6-6-6-6-6-6-6-6-6-6-6-6-6-6-6-6-6-6-6-6-6-6---------------------------------------   
D# -0-0-0-0-0-0-0-0-0-0-0-0-0-0-0-0-0-0-0-0-0-0-7-7-7-7-7-7-7-7-7-7-7-7-7-7-7-7-7-7-7-

WIERD BASS PART IN THE LAST "WHEN YOUR LOVER...." BIT


G# --------------------------------
D# ------13----13-13-----13--------
A# ---------13-13-13-----13--------X2 THEN   
E  -0--12------------12------12----


G# -----------------------------
D# -----------------------------
A# -8-8-8-8-8-8-8-8-8-8-8-8-8-8-   
E  -7-7-7-7-7-7-7-7-7-7-7-7-7-7-