Encyclopedia‎ > ‎Guitar Tabs‎ > ‎

Bionic (guitar, version 2)


From the Brick Shithouse tab archive.
Tabbed by Brendan.
 
In the standard Placebo tuning (F Bb Eb Ab C C)
 
This isn't too right but sounds similar.  Play around with it, I don't
like the song enough to get it right.
 
[Intro]
 
|-------------------------------------|-----------------------------------------------------|
|-------------------------------------|-----------------------------------------------------|
|-------------------------------------|-----------------------------------------------------|
|--0-0-0-0-0-0-0-0-0-0-0-0-0-0-0-0-0--|--s-11-11-11-11-11-11-11-11-11-11-11-11-11-11-11-11--|
|-------------------------------------|-----------------------------------------------------|
|-------------------------------------|-----------------------------------------------------|
 
[Verses]
 
|-----------------------------------|----------------------------------------------------------------------|
|-----------------------------------|----------------------------------------------------------------------|
|-----------------------------------|----------------------------------------------------------------------|
|--7-7-7-7-7-7-7-7-7-7-7-7-7-7-7-7--|--11-11-11-11-h-12-p-11-11-11-11-h-12-11-11-11-11-h-12-p-11-11-11-11--|
|--5-5-5-5-5-5-5-5-5-5-5-5-5-5-5-5--|---9--9--9--9---------9--9--9--9-------9--9--9--9---------9--9--9--9--|
|-----------------------------------|----------------------------------------------------------------------|
 
[Chorus]
 
|-------------------------------------|---------------------------------------------------|
|-------------------------------------|---------------------------------------------------|
|-------------------------------------|---------------------------------------------------|
|--4-4-4-4-h-5-p-4-4-4-4-h-5-p-4-4-4--|--11-11-11-11-11-11-11-11-11-11-11-11-11-11-11-11--|
|-------------------------------------|---------------------------------------------------|
|-------------------------------------|---------------------------------------------------|
 
Repeat, then:
 
|----------------------------------|-------------------------|
|--10-10-8-7-7-7-7-7-7-7-8-10-8-7--|--8-7-7-s-2-2-2-3-3-3-3--|
|----------------------------------|-------------------------|
|----------------------------------|-------------------------|
|----------------------------------|-------------------------|
|----------------------------------|-------------------------|