Encyclopedia‎ > ‎Guitar Tabs‎ > ‎

Bigmouth Strikes Again (guitar)


From the Brick Shithouse tab archive.
Tabbed by Jon Garrard, slight alterations by Brendan.

[Intro/Verses]
 
|---------------------------------------------------------------|
|--4-4-4-4-4-4-8-8-8-------------4-4-4-4-4-4-------3-3-3-3-3-3--|
|--5-5-5-5-5-5-8-8-8-7-7-7-7-7-7-5-5-5-5-5-5-5-5-5-3-3-3-3-3-3--|
|--5-5-5-5-5-5-8-8-8-8-8-8-8-8-8-5-5-5-5-5-5-6-6-6-3-3-3-3-3-3--|
|--3-3-3-3-3-3-6-6-6-8-8-8-8-8-8-3-3-3-3-3-3-6-6-6-1-1-1-1-1-1--|
|--------------------6-6-6-6-6-6-------------4-4-4--------------|

|------------------------------------------------------------|
|------------------------------------------------------------|
|--12-10-8-8-7-8-12-10-8-8s15-12-12-10-8-8-10-8-8-8-7-15-12--|
|------------------------------------------------------------|
|------------------------------------------------------------|
|------------------------------------------------------------|

[Bridge]

|-----------------------------------------------------------------------|
|-----------------------------------------------------------------------|
|-----------------------------------------------------------------------|
|--5-5-5-5-5-5-5-5-5-5-3-3-3-3-3-3-5-5-5-5-5-5-5-5-5-5-6-6-6-6-8-8-8-8--|
|--5-5-5-5-5-5-5-5-5-5-3-3-3-3-3-3-5-5-5-5-5-5-5-5-5-5-6-6-6-6-8-8-8-8--|
|--3-3-3-3-3-3-3-3-3-3-1-1-1-1-1-1-3-3-3-3-3-3-3-3-3-3-4-4-4-4-6-6-6-6--|