Encyclopedia‎ > ‎Guitar Tabs‎ > ‎

Been Smoking Too Long (guitar)


From the Brick Shithouse tab archive.
Tabbed by Brendan.
 
In normal tuning.
 
[There isn't really a chorus/verse change, it all seems one.  Aaaah.]
 
|-----------------|-----------------------|
|--1-0-1-3-1-0-1--|-----------------------|
|--2-2-2-2-2-2-2--|--5-5-5-4-4-4-4-4-4-4--|
|--2-2-2-2-2-2-2--|--5-5-5-4-4-4-4-4-4-4--|
|--0-0-0-0-0-0-0--|--3-3-3-2-2-2-2-2-2-2--|
|-----------------|-----------------------|
 
Play that twice then:
 
|-------------------|-------------------|--3-3-3-3-3-3-3-3--|-------------------------|
|--1-1-0-1-1-1-0-1--|--1-1-0-1-1-1-0-1--|--3-3-3-3-3-3-3-3--|--1-1-1-1-1-1-1-1-1-1-1--|
|--2-2-2-2-0-0-0-0--|--2-2-2-2-0-0-0-0--|--0-0-0-0-0-0-0-0--|--2-2-0-0-0-2-2-0-0-0-2--|
|--2-2-2-2-2-2-2-2--|--2-2-2-2-2-2-2-2--|--0-0-0-0-0-0-0-0--|--2-2-2-2-2-2-2-2-2-2-2--|
|--0-0-0-0-3-3-3-3--|--0-0-0-0-3-3-3-3--|--2-2-2-2-2-2-2-2--|--0-0-3-3-3-0-0-3-3-3-0--|
|-------------------|-------------------|--3-3-3-3-3-3-3-3--|-------------------------|