Encyclopedia‎ > ‎Guitar Tabs‎ > ‎

Ask For Answers (bass)


TABBED BY SCOTT ANDREWS

STANDARD PLACEBO BASS TUNING

INTRO (PLAYED THROUGH MOST OF SONG)

THE ~ SYMBOL MEANS HAMMER ON/OFF

G# ----------------------0------
D# -9-10-12-10-9-9~10~9--5------
A# -----------------------------
F  -----------------------------

"GET THROUGH, THIS NIGHT...." BIT

G# -4-4-4---7----4-4-4----7-----4-4-4---7--7-7-7-7/---12-12-12---9----
D# -------------------------------------------------------------------
A# -------------------------------------------------------------------
F  -------------------------------------------------------------------

END BIT

G# --------12-------12---------------------------------
D# ----------------------------------------------------
A# ----10------10-------10--12--14-14-12--14-14-12-14--
F  -12-------------------------------------------------