Encyclopedia‎ > ‎Guitar Tabs‎ > ‎

Allergic (To Thoughts Of Mother Earth) (bass)


TABBED BY SCOTT ANDREWS

STANDARD PLACEBO TUNING

VERSE/INTRO


G# -0-0-0-0-0-0-0-0-7-7-7-7-7-7-7-7--
D# -5-5-5-5-5-5-5-5-0-0-0-0-0-0-0-0--
A# ----------------------------------
F  ----------------------------------


"THE LIGHT DIVINING...." BIT

G# ------------------------------------------------------------------
D# -9-9-9-9-9-9-9-9-7-7-7-7-7-7-7-7--9-9-9-9-9-9-9-9-----------------
A# -------------------------------------------------9-9-9-9-9-9-9-9--
F  ------------------------------------------------------------------

"DON'T LET ME DOWN...." BIT

G# --------------------------------------------------------------------
D# --------------------------------------------------------------------
A# --------------------------------------------------------------------
F  -3-3-3-3-3-3-3-3-3-2-2-2-2-2-2-2-2-3-3-3-3-3-3-3-3-2-2-2-2-2-2-2-2--

OUTRO

G# -0-0-0-0-0-0-0-0-0-0-0-0-0-0-0-0----
D# -5-5-5-5-5-5-5-5-5-5-5-5-5-5-5-5----
A# ------------------------------------
F  ------------------------------------