Encyclopedia‎ > ‎Guitar Tabs‎ > ‎

36 Degrees (bass)


From the Brick Shithouse tab archive.
Tabbed by Ian Edwards.

During the first verse of this song I'm sure there's no bass so wait until the chorus.

[Chorus]

|-----------------------------------------------------------|
|-----------------------------------------------------------|
|--4-4-4--4-4-4-4--4-4-4--4-4-4-4---8-8-8--8-8-8-8---8-8-8--|
|-----------------------------------------------------------|

|-----------|
|-----------|
|--8-8-8-8--|
|-----------|

Repeat the chorus x3 after playing that round once.

[Verse]

|-------------------------------------------------------|
|-------------------------------------------------------|
|-------------------------------------------------------|
|--2-2-2--2-2-2-2--2-2-2--2-2-2-2--4-4-4--4-4-4-4--4-4--|

|---------|
|---------|
|---------|
|--4-4-4--|

Repeat that bit again until you do the chorus (which is repeated 4 times).

After all that, Brian starts singing "1, 7, 2, 3, 9, 8, 5, I gotta breath to stay alive".  Under this play:

|-------------------------------------------------------------|
|-------------------------------------------------------------|
|-------------------------------------------------------------|
|--2-let-ring......------2-2-/-9-\-2-let-ring......------2-2--|

|-----------------------------------------------|
|-----------------------------------------------|
|-----------------------------------------------|
|--/-9-\--2--2-2-2--2-2-2-/-9-9-9-9-9--9-9-9-\--|

Repeat that a few more times and keep repeating it after Brian has stopped singing. After all that play the chorus twice and end it all by playing the second fret on the E string once and letting it ring until it fades out and the song ends.